999
"DXF R12 Output" (www.mydxf.blogspot.com)
 0 
SECTION
 2 
HEADER
 9 
$ACADVER
 1 
AC1009
 9 
$EXTMIN
 10 
 0 
 20 
 0 
 9 
$EXTMAX
 10 
 8.5 
 20 
 11 
 0 
ENDSEC
 0 
SECTION
 2 
ENTITIES
0
LINE
8
Layer 1
10
0.793749
20
184.319000
11
-0.793749
21
182.731000
0
LINE
8
Layer 1
10
0.000000
20
184.848000
11
0.000000
21
182.202000
0
LINE
8
Layer 1
10
2.116660
20
182.467000
11
1.058330
21
181.408670
0
LINE
8
Layer 1
10
1.587500
20
182.996000
11
0.529170
21
181.937670
0
LINE
8
Layer 1
10
1.058330
20
183.525000
11
0.000000
21
182.466670
0
LINE
8
0
10
60.632300
20
22.379000
11
60.498324
21
22.878867
0
LINE
8
0
10
60.498324
20
22.878867
11
60.132299
21
23.244795
0
LINE
8
0
10
60.132299
20
23.244795
11
59.632300
21
23.378734
0
LINE
8
0
10
59.632300
20
23.378734
11
59.132301
21
23.244795
0
LINE
8
0
10
59.132301
20
23.244795
11
58.766276
21
22.878867
0
LINE
8
0
10
58.766276
20
22.878867
11
58.632302
21
22.379000
0
LINE
8
0
10
58.632302
20
22.379000
11
58.766277
21
21.879133
0
LINE
8
0
10
58.766277
20
21.879133
11
59.132302
21
21.513205
0
LINE
8
0
10
59.132302
20
21.513205
11
59.632301
21
21.379266
0
LINE
8
0
10
59.632301
20
21.379266
11
60.132300
21
21.513205
0
LINE
8
0
10
60.132300
20
21.513205
11
60.498325
21
21.879133
0
LINE
8
0
10
60.498325
20
21.879133
11
60.632299
21
22.379000
0
LINE
8
0
10
60.632299
20
22.379000
11
60.632300
21
22.379000
0
LINE
8
0
10
140.632000
20
22.379000
11
140.498024
21
22.878867
0
LINE
8
0
10
140.498024
20
22.878867
11
140.131999
21
23.244795
0
LINE
8
0
10
140.131999
20
23.244795
11
139.632000
21
23.378734
0
LINE
8
0
10
139.632000
20
23.378734
11
139.132001
21
23.244795
0
LINE
8
0
10
139.132001
20
23.244795
11
138.765976
21
22.878867
0
LINE
8
0
10
138.765976
20
22.878867
11
138.632002
21
22.379000
0
LINE
8
0
10
138.632002
20
22.379000
11
138.765977
21
21.879133
0
LINE
8
0
10
138.765977
20
21.879133
11
139.132002
21
21.513205
0
LINE
8
0
10
139.132002
20
21.513205
11
139.632001
21
21.379266
0
LINE
8
0
10
139.632001
20
21.379266
11
140.132000
21
21.513205
0
LINE
8
0
10
140.132000
20
21.513205
11
140.498025
21
21.879133
0
LINE
8
0
10
140.498025
20
21.879133
11
140.631999
21
22.379000
0
LINE
8
0
10
140.631999
20
22.379000
11
140.632000
21
22.379000
0
LINE
8
0
10
180.632000
20
91.642600
11
180.498024
21
92.142466
0
LINE
8
0
10
180.498024
20
92.142466
11
180.131999
21
92.508394
0
LINE
8
0
10
180.131999
20
92.508394
11
179.632000
21
92.642333
0
LINE
8
0
10
179.632000
20
92.642333
11
179.132001
21
92.508394
0
LINE
8
0
10
179.132001
20
92.508394
11
178.765976
21
92.142466
0
LINE
8
0
10
178.765976
20
92.142466
11
178.632002
21
91.642600
0
LINE
8
0
10
178.632002
20
91.642600
11
178.765977
21
91.142734
0
LINE
8
0
10
178.765977
20
91.142734
11
179.132002
21
90.776806
0
LINE
8
0
10
179.132002
20
90.776806
11
179.632001
21
90.642867
0
LINE
8
0
10
179.632001
20
90.642867
11
180.132000
21
90.776806
0
LINE
8
0
10
180.132000
20
90.776806
11
180.498025
21
91.142734
0
LINE
8
0
10
180.498025
20
91.142734
11
180.631999
21
91.642600
0
LINE
8
0
10
180.631999
20
91.642600
11
180.632000
21
91.642600
0
LINE
8
0
10
140.632000
20
160.906000
11
140.498024
21
161.405867
0
LINE
8
0
10
140.498024
20
161.405867
11
140.131999
21
161.771795
0
LINE
8
0
10
140.131999
20
161.771795
11
139.632000
21
161.905734
0
LINE
8
0
10
139.632000
20
161.905734
11
139.132001
21
161.771795
0
LINE
8
0
10
139.132001
20
161.771795
11
138.765976
21
161.405867
0
LINE
8
0
10
138.765976
20
161.405867
11
138.632002
21
160.906000
0
LINE
8
0
10
138.632002
20
160.906000
11
138.765977
21
160.406133
0
LINE
8
0
10
138.765977
20
160.406133
11
139.132002
21
160.040205
0
LINE
8
0
10
139.132002
20
160.040205
11
139.632001
21
159.906266
0
LINE
8
0
10
139.632001
20
159.906266
11
140.132000
21
160.040205
0
LINE
8
0
10
140.132000
20
160.040205
11
140.498025
21
160.406133
0
LINE
8
0
10
140.498025
20
160.406133
11
140.631999
21
160.906000
0
LINE
8
0
10
140.631999
20
160.906000
11
140.632000
21
160.906000
0
LINE
8
0
10
60.632300
20
160.906000
11
60.498324
21
161.405867
0
LINE
8
0
10
60.498324
20
161.405867
11
60.132299
21
161.771795
0
LINE
8
0
10
60.132299
20
161.771795
11
59.632300
21
161.905734
0
LINE
8
0
10
59.632300
20
161.905734
11
59.132301
21
161.771795
0
LINE
8
0
10
59.132301
20
161.771795
11
58.766276
21
161.405867
0
LINE
8
0
10
58.766276
20
161.405867
11
58.632302
21
160.906000
0
LINE
8
0
10
58.632302
20
160.906000
11
58.766277
21
160.406133
0
LINE
8
0
10
58.766277
20
160.406133
11
59.132302
21
160.040205
0
LINE
8
0
10
59.132302
20
160.040205
11
59.632301
21
159.906266
0
LINE
8
0
10
59.632301
20
159.906266
11
60.132300
21
160.040205
0
LINE
8
0
10
60.132300
20
160.040205
11
60.498325
21
160.406133
0
LINE
8
0
10
60.498325
20
160.406133
11
60.632299
21
160.906000
0
LINE
8
0
10
60.632299
20
160.906000
11
60.632300
21
160.906000
0
LINE
8
0
10
20.632400
20
91.642600
11
20.498424
21
92.142466
0
LINE
8
0
10
20.498424
20
92.142466
11
20.132399
21
92.508394
0
LINE
8
0
10
20.132399
20
92.508394
11
19.632400
21
92.642333
0
LINE
8
0
10
19.632400
20
92.642333
11
19.132401
21
92.508394
0
LINE
8
0
10
19.132401
20
92.508394
11
18.766376
21
92.142466
0
LINE
8
0
10
18.766376
20
92.142466
11
18.632402
21
91.642600
0
LINE
8
0
10
18.632402
20
91.642600
11
18.766377
21
91.142734
0
LINE
8
0
10
18.766377
20
91.142734
11
19.132402
21
90.776806
0
LINE
8
0
10
19.132402
20
90.776806
11
19.632401
21
90.642867
0
LINE
8
0
10
19.632401
20
90.642867
11
20.132400
21
90.776806
0
LINE
8
0
10
20.132400
20
90.776806
11
20.498425
21
91.142734
0
LINE
8
0
10
20.498425
20
91.142734
11
20.632399
21
91.642600
0
LINE
8
0
10
20.632399
20
91.642600
11
20.632400
21
91.642600
0
LINE
8
0
10
40.132400
20
34.216700
11
40.132400
21
11.124300
0
LINE
8
0
10
40.132400
20
11.124300
11
59.632300
21
-0.127600
0
LINE
8
0
10
59.632300
20
-0.127578
11
79.632300
21
11.407322
0
LINE
8
0
10
79.632300
20
11.407300
11
99.632300
21
-0.127600
0
LINE
8
0
10
99.632200
20
-0.127578
11
119.632200
21
11.407322
0
LINE
8
0
10
119.632000
20
11.407300
11
139.632000
21
-0.127600
0
LINE
8
0
10
139.632000
20
-0.127578
11
159.131900
21
11.124322
0
LINE
8
0
10
159.132000
20
11.124300
11
159.132000
21
34.216700
0
LINE
8
0
10
159.132000
20
34.216700
11
179.132000
21
45.751600
0
LINE
8
0
10
179.132000
20
45.751600
11
179.132000
21
68.844100
0
LINE
8
0
10
179.132000
20
68.844100
11
199.132100
21
80.390300
0
LINE
8
0
10
199.132000
20
80.390300
11
199.132000
21
102.894000
0
LINE
8
0
10
199.132000
20
102.894000
11
179.131900
21
114.440200
0
LINE
8
0
10
179.132000
20
114.440000
11
179.132000
21
137.533000
0
LINE
8
0
10
179.132000
20
137.533000
11
159.132000
21
149.079200
0
LINE
8
0
10
159.132000
20
149.079000
11
159.132000
21
172.160000
0
LINE
8
0
10
159.132000
20
172.160000
11
139.632000
21
183.412000
0
LINE
8
0
10
139.632000
20
183.412000
11
119.632000
21
171.877100
0
LINE
8
0
10
119.632000
20
171.877000
11
99.632200
21
183.412000
0
LINE
8
0
10
99.632200
20
183.412000
11
79.632200
21
171.877100
0
LINE
8
0
10
79.632300
20
171.877000
11
59.632300
21
183.412000
0
LINE
8
0
10
59.632300
20
183.412000
11
40.132400
21
172.160100
0
LINE
8
0
10
40.132400
20
172.160000
11
40.132400
21
149.079000
0
LINE
8
0
10
40.132400
20
149.079000
11
20.132400
21
137.532800
0
LINE
8
0
10
20.132400
20
137.533000
11
20.132400
21
114.440000
0
LINE
8
0
10
20.132400
20
114.440000
11
0.132300
21
102.893800
0
LINE
8
0
10
0.132338
20
102.894000
11
0.132338
21
80.390300
0
LINE
8
0
10
0.132338
20
80.390300
11
20.132438
21
68.844100
0
LINE
8
0
10
20.132400
20
45.751600
11
40.132400
21
34.216700
0
LINE
8
0
10
20.132400
20
68.844100
11
20.132400
21
45.751600
0
LINE
8
0
10
101.085000
20
160.031000
11
101.039023
21
160.927349
0
LINE
8
0
10
101.039023
20
160.927349
11
100.489254
21
161.636905
0
LINE
8
0
10
100.489254
20
161.636905
11
99.632630
21
161.905495
0
LINE
8
0
10
99.632630
20
161.905495
11
98.776006
21
161.636905
0
LINE
8
0
10
98.776006
20
161.636905
11
98.226237
21
160.927349
0
LINE
8
0
10
98.226237
20
160.927349
11
98.180260
21
160.031000
0
LINE
8
0
10
98.180260
20
160.031000
11
97.400256
21
159.410688
0
LINE
8
0
10
97.400256
20
159.410688
11
96.876961
21
158.592236
0
LINE
8
0
10
96.876961
20
158.592236
11
96.642227
21
157.649642
0
LINE
8
0
10
96.642227
20
157.649642
11
96.727903
21
156.656900
0
LINE
8
0
10
96.727903
20
156.656900
11
97.133674
21
155.746785
0
LINE
8
0
10
97.133674
20
155.746785
11
97.795520
21
155.035627
0
LINE
8
0
10
97.795520
20
155.035627
11
98.649740
21
154.572756
0
LINE
8
0
10
98.649740
20
154.572756
11
99.632630
21
154.407503
0
LINE
8
0
10
99.632630
20
154.407503
11
100.615520
21
154.572756
0
LINE
8
0
10
100.615520
20
154.572756
11
101.469740
21
155.035627
0
LINE
8
0
10
101.469740
20
155.035627
11
102.131586
21
155.746785
0
LINE
8
0
10
102.131586
20
155.746785
11
102.537357
21
156.656900
0
LINE
8
0
10
102.537357
20
156.656900
11
102.623033
21
157.649642
0
LINE
8
0
10
102.623033
20
157.649642
11
102.388299
21
158.592236
0
LINE
8
0
10
102.388299
20
158.592236
11
101.865004
21
159.410688
0
LINE
8
0
10
101.865004
20
159.410688
11
101.085000
21
160.031000
0
LINE
8
0
10
101.085000
20
160.031000
11
101.085000
21
160.031000
0
LINE
8
0
10
138.632000
20
160.908000
11
139.632000
21
160.908000
0
LINE
8
0
10
59.632300
20
160.908000
11
60.632300
21
160.908000
 0 
ENDSEC
 0 
EOF