999
"DXF R12 Output" (www.mydxf.blogspot.com)
 0 
SECTION
 2 
HEADER
 9 
$ACADVER
 1 
AC1009
 9 
$EXTMIN
 10 
 0 
 20 
 0 
 9 
$EXTMAX
 10 
 8.5 
 20 
 11 
 0 
ENDSEC
 0 
SECTION
 2 
ENTITIES
0
LINE
8
Layer 1
10
0.793749
20
184.391000
11
-0.793749
21
182.803000
0
LINE
8
Layer 1
10
0.000000
20
184.920000
11
0.000000
21
182.274000
0
LINE
8
Layer 1
10
2.116660
20
182.539000
11
1.058330
21
181.480670
0
LINE
8
Layer 1
10
1.587500
20
183.068000
11
0.529170
21
182.009670
0
LINE
8
Layer 1
10
1.058330
20
183.597000
11
0.000000
21
182.538670
0
LINE
8
Cut
10
60.499900
20
22.516500
11
60.420098
21
22.904381
0
LINE
8
Cut
10
60.420098
20
22.904381
11
60.205514
21
23.220862
0
LINE
8
Cut
10
60.205514
20
23.220862
11
59.888126
21
23.434101
0
LINE
8
Cut
10
59.888126
20
23.434101
11
59.499910
21
23.512256
0
LINE
8
Cut
10
59.499910
20
23.512256
11
59.111694
21
23.434101
0
LINE
8
Cut
10
59.111694
20
23.434101
11
58.794306
21
23.220862
0
LINE
8
Cut
10
58.794306
20
23.220862
11
58.579722
21
22.904381
0
LINE
8
Cut
10
58.579722
20
22.904381
11
58.499920
21
22.516500
0
LINE
8
Cut
10
58.499920
20
22.516500
11
58.579722
21
22.128619
0
LINE
8
Cut
10
58.579722
20
22.128619
11
58.794306
21
21.812138
0
LINE
8
Cut
10
58.794306
20
21.812138
11
59.111694
21
21.598899
0
LINE
8
Cut
10
59.111694
20
21.598899
11
59.499910
21
21.520744
0
LINE
8
Cut
10
59.499910
20
21.520744
11
59.888126
21
21.598899
0
LINE
8
Cut
10
59.888126
20
21.598899
11
60.205514
21
21.812138
0
LINE
8
Cut
10
60.205514
20
21.812138
11
60.420098
21
22.128619
0
LINE
8
Cut
10
60.420098
20
22.128619
11
60.499900
21
22.516500
0
LINE
8
Cut
10
60.499900
20
22.516500
11
60.499900
21
22.516500
0
LINE
8
Cut
10
140.500000
20
22.516500
11
140.420198
21
22.904381
0
LINE
8
Cut
10
140.420198
20
22.904381
11
140.205614
21
23.220862
0
LINE
8
Cut
10
140.205614
20
23.220862
11
139.888226
21
23.434101
0
LINE
8
Cut
10
139.888226
20
23.434101
11
139.500010
21
23.512256
0
LINE
8
Cut
10
139.500010
20
23.512256
11
139.111794
21
23.434101
0
LINE
8
Cut
10
139.111794
20
23.434101
11
138.794406
21
23.220862
0
LINE
8
Cut
10
138.794406
20
23.220862
11
138.579822
21
22.904381
0
LINE
8
Cut
10
138.579822
20
22.904381
11
138.500020
21
22.516500
0
LINE
8
Cut
10
138.500020
20
22.516500
11
138.579822
21
22.128619
0
LINE
8
Cut
10
138.579822
20
22.128619
11
138.794406
21
21.812138
0
LINE
8
Cut
10
138.794406
20
21.812138
11
139.111794
21
21.598899
0
LINE
8
Cut
10
139.111794
20
21.598899
11
139.500010
21
21.520744
0
LINE
8
Cut
10
139.500010
20
21.520744
11
139.888226
21
21.598899
0
LINE
8
Cut
10
139.888226
20
21.598899
11
140.205614
21
21.812138
0
LINE
8
Cut
10
140.205614
20
21.812138
11
140.420198
21
22.128619
0
LINE
8
Cut
10
140.420198
20
22.128619
11
140.500000
21
22.516500
0
LINE
8
Cut
10
140.500000
20
22.516500
11
140.500000
21
22.516500
0
LINE
8
Cut
10
180.500000
20
91.798500
11
180.420198
21
92.186381
0
LINE
8
Cut
10
180.420198
20
92.186381
11
180.205614
21
92.502862
0
LINE
8
Cut
10
180.205614
20
92.502862
11
179.888226
21
92.716101
0
LINE
8
Cut
10
179.888226
20
92.716101
11
179.500010
21
92.794256
0
LINE
8
Cut
10
179.500010
20
92.794256
11
179.111794
21
92.716101
0
LINE
8
Cut
10
179.111794
20
92.716101
11
178.794406
21
92.502862
0
LINE
8
Cut
10
178.794406
20
92.502862
11
178.579822
21
92.186381
0
LINE
8
Cut
10
178.579822
20
92.186381
11
178.500020
21
91.798500
0
LINE
8
Cut
10
178.500020
20
91.798500
11
178.579822
21
91.410619
0
LINE
8
Cut
10
178.579822
20
91.410619
11
178.794406
21
91.094138
0
LINE
8
Cut
10
178.794406
20
91.094138
11
179.111794
21
90.880899
0
LINE
8
Cut
10
179.111794
20
90.880899
11
179.500010
21
90.802744
0
LINE
8
Cut
10
179.500010
20
90.802744
11
179.888226
21
90.880899
0
LINE
8
Cut
10
179.888226
20
90.880899
11
180.205614
21
91.094138
0
LINE
8
Cut
10
180.205614
20
91.094138
11
180.420198
21
91.410619
0
LINE
8
Cut
10
180.420198
20
91.410619
11
180.500000
21
91.798500
0
LINE
8
Cut
10
180.500000
20
91.798500
11
180.500000
21
91.798500
0
LINE
8
Cut
10
140.500000
20
161.080000
11
140.420198
21
161.467881
0
LINE
8
Cut
10
140.420198
20
161.467881
11
140.205614
21
161.784362
0
LINE
8
Cut
10
140.205614
20
161.784362
11
139.888226
21
161.997601
0
LINE
8
Cut
10
139.888226
20
161.997601
11
139.500010
21
162.075756
0
LINE
8
Cut
10
139.500010
20
162.075756
11
139.111794
21
161.997601
0
LINE
8
Cut
10
139.111794
20
161.997601
11
138.794406
21
161.784362
0
LINE
8
Cut
10
138.794406
20
161.784362
11
138.579822
21
161.467881
0
LINE
8
Cut
10
138.579822
20
161.467881
11
138.500020
21
161.080000
0
LINE
8
Cut
10
138.500020
20
161.080000
11
138.579822
21
160.692119
0
LINE
8
Cut
10
138.579822
20
160.692119
11
138.794406
21
160.375638
0
LINE
8
Cut
10
138.794406
20
160.375638
11
139.111794
21
160.162399
0
LINE
8
Cut
10
139.111794
20
160.162399
11
139.500010
21
160.084244
0
LINE
8
Cut
10
139.500010
20
160.084244
11
139.888226
21
160.162399
0
LINE
8
Cut
10
139.888226
20
160.162399
11
140.205614
21
160.375638
0
LINE
8
Cut
10
140.205614
20
160.375638
11
140.420198
21
160.692119
0
LINE
8
Cut
10
140.420198
20
160.692119
11
140.500000
21
161.080000
0
LINE
8
Cut
10
140.500000
20
161.080000
11
140.500000
21
161.080000
0
LINE
8
Cut
10
60.499900
20
161.080000
11
60.420098
21
161.467881
0
LINE
8
Cut
10
60.420098
20
161.467881
11
60.205514
21
161.784362
0
LINE
8
Cut
10
60.205514
20
161.784362
11
59.888126
21
161.997601
0
LINE
8
Cut
10
59.888126
20
161.997601
11
59.499910
21
162.075756
0
LINE
8
Cut
10
59.499910
20
162.075756
11
59.111694
21
161.997601
0
LINE
8
Cut
10
59.111694
20
161.997601
11
58.794306
21
161.784362
0
LINE
8
Cut
10
58.794306
20
161.784362
11
58.579722
21
161.467881
0
LINE
8
Cut
10
58.579722
20
161.467881
11
58.499920
21
161.080000
0
LINE
8
Cut
10
58.499920
20
161.080000
11
58.579722
21
160.692119
0
LINE
8
Cut
10
58.579722
20
160.692119
11
58.794306
21
160.375638
0
LINE
8
Cut
10
58.794306
20
160.375638
11
59.111694
21
160.162399
0
LINE
8
Cut
10
59.111694
20
160.162399
11
59.499910
21
160.084244
0
LINE
8
Cut
10
59.499910
20
160.084244
11
59.888126
21
160.162399
0
LINE
8
Cut
10
59.888126
20
160.162399
11
60.205514
21
160.375638
0
LINE
8
Cut
10
60.205514
20
160.375638
11
60.420098
21
160.692119
0
LINE
8
Cut
10
60.420098
20
160.692119
11
60.499900
21
161.080000
0
LINE
8
Cut
10
60.499900
20
161.080000
11
60.499900
21
161.080000
0
LINE
8
Cut
10
20.500000
20
91.798500
11
20.420198
21
92.186381
0
LINE
8
Cut
10
20.420198
20
92.186381
11
20.205614
21
92.502862
0
LINE
8
Cut
10
20.205614
20
92.502862
11
19.888226
21
92.716101
0
LINE
8
Cut
10
19.888226
20
92.716101
11
19.500010
21
92.794256
0
LINE
8
Cut
10
19.500010
20
92.794256
11
19.111794
21
92.716101
0
LINE
8
Cut
10
19.111794
20
92.716101
11
18.794406
21
92.502862
0
LINE
8
Cut
10
18.794406
20
92.502862
11
18.579822
21
92.186381
0
LINE
8
Cut
10
18.579822
20
92.186381
11
18.500020
21
91.798500
0
LINE
8
Cut
10
18.500020
20
91.798500
11
18.579822
21
91.410619
0
LINE
8
Cut
10
18.579822
20
91.410619
11
18.794406
21
91.094138
0
LINE
8
Cut
10
18.794406
20
91.094138
11
19.111794
21
90.880899
0
LINE
8
Cut
10
19.111794
20
90.880899
11
19.500010
21
90.802744
0
LINE
8
Cut
10
19.500010
20
90.802744
11
19.888226
21
90.880899
0
LINE
8
Cut
10
19.888226
20
90.880899
11
20.205614
21
91.094138
0
LINE
8
Cut
10
20.205614
20
91.094138
11
20.420198
21
91.410619
0
LINE
8
Cut
10
20.420198
20
91.410619
11
20.500000
21
91.798500
0
LINE
8
Cut
10
20.500000
20
91.798500
11
20.500000
21
91.798500
0
LINE
8
Cut
10
39.999900
20
34.352200
11
39.999900
21
11.258300
0
LINE
8
Cut
10
39.999900
20
11.258300
11
59.499900
21
0.000000
0
LINE
8
Cut
10
59.499900
20
-0.000054
11
79.499900
21
11.546946
0
LINE
8
Cut
10
79.499900
20
11.546900
11
99.499900
21
-0.000054
0
LINE
8
Cut
10
99.499900
20
-0.000054
11
119.499900
21
11.546946
0
LINE
8
Cut
10
119.500000
20
11.546900
11
139.500000
21
-0.000100
0
LINE
8
Cut
10
139.500000
20
-0.000054
11
159.000000
21
11.258246
0
LINE
8
Cut
10
159.000000
20
11.258300
11
159.000000
21
34.352200
0
LINE
8
Cut
10
159.000000
20
34.352200
11
179.000000
21
45.899200
0
LINE
8
Cut
10
179.000000
20
45.899100
11
179.000000
21
68.993200
0
LINE
8
Cut
10
179.000000
20
68.993200
11
199.000000
21
80.540100
0
LINE
8
Cut
10
199.000000
20
80.540100
11
199.000000
21
103.057000
0
LINE
8
Cut
10
199.000000
20
103.057000
11
179.000000
21
114.604000
0
LINE
8
Cut
10
179.000000
20
114.604000
11
179.000000
21
137.698000
0
LINE
8
Cut
10
179.000000
20
137.698000
11
159.000000
21
149.245000
0
LINE
8
Cut
10
159.000000
20
149.245000
11
159.000000
21
172.339000
0
LINE
8
Cut
10
159.000000
20
172.339000
11
139.500000
21
183.597000
0
LINE
8
Cut
10
139.500000
20
183.597000
11
119.500000
21
172.050000
0
LINE
8
Cut
10
119.500000
20
172.050000
11
99.499900
21
183.597000
0
LINE
8
Cut
10
99.499900
20
183.597000
11
79.499900
21
172.050000
0
LINE
8
Cut
10
79.499900
20
172.050000
11
59.499900
21
183.597000
0
LINE
8
Cut
10
59.499900
20
183.597000
11
39.999900
21
172.339000
0
LINE
8
Cut
10
39.999900
20
172.339000
11
39.999900
21
149.245000
0
LINE
8
Cut
10
39.999900
20
149.245000
11
20.000000
21
137.698000
0
LINE
8
Cut
10
20.000000
20
137.698000
11
20.000000
21
114.604000
0
LINE
8
Cut
10
20.000000
20
114.604000
11
0.000000
21
103.057000
0
LINE
8
Cut
10
0.000000
20
103.057000
11
0.000000
21
80.540100
0
LINE
8
Cut
10
0.000000
20
80.540100
11
20.000000
21
68.993100
0
LINE
8
Cut
10
20.000000
20
45.899100
11
40.000000
21
34.352100
0
LINE
8
Cut
10
20.000000
20
68.993200
11
20.000000
21
45.899100
 0 
ENDSEC
 0 
EOF